ISO-10303-21;
HEADER;
/* Generated by software containing ST-Developer
 * from STEP Tools, Inc. (www.steptools.com) 
 */

FILE_DESCRIPTION(
/* description */ (''),
/* implementation_level */ '2;1');

FILE_NAME(
/* name */ 
'/Users/sean/Documents/Parts/_DMSF jobs/Nikon Universial Stage Mount v
3/Nikon_100mm_petri_insert.step',
/* time_stamp */ '2019-11-14T11:35:23-08:00',
/* author */ (''),
/* organization */ (''),
/* preprocessor_version */ 'ST-DEVELOPER v18',
/* originating_system */ 'Autodesk Translation Framework v8.12.0.6',
/* authorisation */ '');

FILE_SCHEMA (('AUTOMOTIVE_DESIGN { 1 0 10303 214 3 1 1 }'));
ENDSEC;

DATA;
#10=MECHANICAL_DESIGN_GEOMETRIC_PRESENTATION_REPRESENTATION('',(#17),#703);
#11=ITEM_DEFINED_TRANSFORMATION($,$,#415,#458);
#12=(
REPRESENTATION_RELATIONSHIP($,$,#714,#713)
REPRESENTATION_RELATIONSHIP_WITH_TRANSFORMATION(#11)
SHAPE_REPRESENTATION_RELATIONSHIP()
);
#13=CONTEXT_DEPENDENT_SHAPE_REPRESENTATION(#12,#712);
#14=NEXT_ASSEMBLY_USAGE_OCCURRENCE('InsertPetriM:1','InsertPetriM:1',
'InsertPetriM:1',#716,#717,'InsertPetriM:1');
#15=SHAPE_REPRESENTATION_RELATIONSHIP('SRR','None',#714,#16);
#16=ADVANCED_BREP_SHAPE_REPRESENTATION('',(#18),#702);
#17=STYLED_ITEM('',(#727),#18);
#18=MANIFOLD_SOLID_BREP('Body1',#401);
#19=FACE_BOUND('',#59,.T.);
#20=FACE_BOUND('',#62,.T.);
#21=FACE_BOUND('',#72,.T.);
#22=FACE_BOUND('',#82,.T.);
#23=PLANE('',#419);
#24=PLANE('',#423);
#25=PLANE('',#428);
#26=PLANE('',#432);
#27=PLANE('',#436);
#28=PLANE('',#440);
#29=PLANE('',#444);
#30=PLANE('',#445);
#31=PLANE('',#448);
#32=PLANE('',#451);
#33=PLANE('',#454);
#34=PLANE('',#457);
#35=FACE_OUTER_BOUND('',#57,.T.);
#36=FACE_OUTER_BOUND('',#58,.T.);
#37=FACE_OUTER_BOUND('',#60,.T.);
#38=FACE_OUTER_BOUND('',#61,.T.);
#39=FACE_OUTER_BOUND('',#63,.T.);
#40=FACE_OUTER_BOUND('',#64,.T.);
#41=FACE_OUTER_BOUND('',#65,.T.);
#42=FACE_OUTER_BOUND('',#66,.T.);
#43=FACE_OUTER_BOUND('',#67,.T.);
#44=FACE_OUTER_BOUND('',#68,.T.);
#45=FACE_OUTER_BOUND('',#69,.T.);
#46=FACE_OUTER_BOUND('',#70,.T.);
#47=FACE_OUTER_BOUND('',#71,.T.);
#48=FACE_OUTER_BOUND('',#73,.T.);
#49=FACE_OUTER_BOUND('',#74,.T.);
#50=FACE_OUTER_BOUND('',#75,.T.);
#51=FACE_OUTER_BOUND('',#76,.T.);
#52=FACE_OUTER_BOUND('',#77,.T.);
#53=FACE_OUTER_BOUND('',#78,.T.);
#54=FACE_OUTER_BOUND('',#79,.T.);
#55=FACE_OUTER_BOUND('',#80,.T.);
#56=FACE_OUTER_BOUND('',#81,.T.);
#57=EDGE_LOOP('',(#261,#262,#263,#264));
#58=EDGE_LOOP('',(#265));
#59=EDGE_LOOP('',(#266));
#60=EDGE_LOOP('',(#267,#268,#269,#270));
#61=EDGE_LOOP('',(#271,#272,#273,#274,#275,#276,#277,#278));
#62=EDGE_LOOP('',(#279));
#63=EDGE_LOOP('',(#280,#281,#282,#283));
#64=EDGE_LOOP('',(#284,#285,#286,#287));
#65=EDGE_LOOP('',(#288,#289,#290,#291));
#66=EDGE_LOOP('',(#292,#293,#294,#295));
#67=EDGE_LOOP('',(#296,#297,#298,#299));
#68=EDGE_LOOP('',(#300,#301,#302,#303));
#69=EDGE_LOOP('',(#304,#305,#306,#307));
#70=EDGE_LOOP('',(#308,#309,#310,#311));
#71=EDGE_LOOP('',(#312,#313,#314,#315,#316,#317,#318,#319));
#72=EDGE_LOOP('',(#320));
#73=EDGE_LOOP('',(#321,#322,#323,#324));
#74=EDGE_LOOP('',(#325,#326,#327,#328));
#75=EDGE_LOOP('',(#329,#330,#331,#332));
#76=EDGE_LOOP('',(#333,#334,#335,#336));
#77=EDGE_LOOP('',(#337,#338,#339,#340));
#78=EDGE_LOOP('',(#341,#342,#343,#344));
#79=EDGE_LOOP('',(#345,#346,#347,#348));
#80=EDGE_LOOP('',(#349,#350,#351,#352));
#81=EDGE_LOOP('',(#353,#354,#355,#356,#357,#358,#359,#360));
#82=EDGE_LOOP('',(#361,#362,#363,#364,#365,#366,#367,#368));
#83=LINE('',#589,#117);
#84=LINE('',#596,#118);
#85=LINE('',#601,#119);
#86=LINE('',#605,#120);
#87=LINE('',#609,#121);
#88=LINE('',#613,#122);
#89=LINE('',#618,#123);
#90=LINE('',#620,#124);
#91=LINE('',#622,#125);
#92=LINE('',#623,#126);
#93=LINE('',#629,#127);
#94=LINE('',#632,#128);
#95=LINE('',#634,#129);
#96=LINE('',#635,#130);
#97=LINE('',#641,#131);
#98=LINE('',#644,#132);
#99=LINE('',#646,#133);
#100=LINE('',#647,#134);
#101=LINE('',#653,#135);
#102=LINE('',#656,#136);
#103=LINE('',#658,#137);
#104=LINE('',#659,#138);
#105=LINE('',#667,#139);
#106=LINE('',#668,#140);
#107=LINE('',#669,#141);
#108=LINE('',#673,#142);
#109=LINE('',#676,#143);
#110=LINE('',#677,#144);
#111=LINE('',#681,#145);
#112=LINE('',#684,#146);
#113=LINE('',#685,#147);
#114=LINE('',#689,#148);
#115=LINE('',#692,#149);
#116=LINE('',#693,#150);
#117=VECTOR('',#467,44.25);
#118=VECTOR('',#476,41.);
#119=VECTOR('',#481,10.);
#120=VECTOR('',#484,10.);
#121=VECTOR('',#487,10.);
#122=VECTOR('',#490,10.);
#123=VECTOR('',#495,10.);
#124=VECTOR('',#496,10.);
#125=VECTOR('',#497,10.);
#126=VECTOR('',#498,10.);
#127=VECTOR('',#505,10.);
#128=VECTOR('',#508,10.);
#129=VECTOR('',#509,10.);
#130=VECTOR('',#510,10.);
#131=VECTOR('',#517,10.);
#132=VECTOR('',#520,10.);
#133=VECTOR('',#521,10.);
#134=VECTOR('',#522,10.);
#135=VECTOR('',#529,10.);
#136=VECTOR('',#532,10.);
#137=VECTOR('',#533,10.);
#138=VECTOR('',#534,10.);
#139=VECTOR('',#545,10.);
#140=VECTOR('',#546,10.);
#141=VECTOR('',#547,10.);
#142=VECTOR('',#552,10.);
#143=VECTOR('',#555,10.);
#144=VECTOR('',#556,10.);
#145=VECTOR('',#561,10.);
#146=VECTOR('',#564,10.);
#147=VECTOR('',#565,10.);
#148=VECTOR('',#570,10.);
#149=VECTOR('',#573,10.);
#150=VECTOR('',#574,10.);
#151=CIRCLE('',#417,44.25);
#152=CIRCLE('',#418,44.25);
#153=CIRCLE('',#420,41.);
#154=CIRCLE('',#422,41.);
#155=CIRCLE('',#424,2.5);
#156=CIRCLE('',#425,2.50000000000001);
#157=CIRCLE('',#426,2.5);
#158=CIRCLE('',#427,2.5);
#159=CIRCLE('',#430,2.5);
#160=CIRCLE('',#431,2.5);
#161=CIRCLE('',#434,2.5);
#162=CIRCLE('',#435,2.5);
#163=CIRCLE('',#438,2.5);
#164=CIRCLE('',#439,2.5);
#165=CIRCLE('',#442,2.50000000000001);
#166=CIRCLE('',#443,2.50000000000001);
#167=CIRCLE('',#447,2.5);
#168=CIRCLE('',#450,2.5);
#169=CIRCLE('',#453,2.50000000000001);
#170=CIRCLE('',#456,2.5);
#171=VERTEX_POINT('',#586);
#172=VERTEX_POINT('',#588);
#173=VERTEX_POINT('',#592);
#174=VERTEX_POINT('',#595);
#175=VERTEX_POINT('',#599);
#176=VERTEX_POINT('',#600);
#177=VERTEX_POINT('',#602);
#178=VERTEX_POINT('',#604);
#179=VERTEX_POINT('',#606);
#180=VERTEX_POINT('',#608);
#181=VERTEX_POINT('',#610);
#182=VERTEX_POINT('',#612);
#183=VERTEX_POINT('',#616);
#184=VERTEX_POINT('',#617);
#185=VERTEX_POINT('',#619);
#186=VERTEX_POINT('',#621);
#187=VERTEX_POINT('',#625);
#188=VERTEX_POINT('',#627);
#189=VERTEX_POINT('',#631);
#190=VERTEX_POINT('',#633);
#191=VERTEX_POINT('',#637);
#192=VERTEX_POINT('',#639);
#193=VERTEX_POINT('',#643);
#194=VERTEX_POINT('',#645);
#195=VERTEX_POINT('',#649);
#196=VERTEX_POINT('',#651);
#197=VERTEX_POINT('',#655);
#198=VERTEX_POINT('',#657);
#199=VERTEX_POINT('',#665);
#200=VERTEX_POINT('',#666);
#201=VERTEX_POINT('',#671);
#202=VERTEX_POINT('',#675);
#203=VERTEX_POINT('',#679);
#204=VERTEX_POINT('',#683);
#205=VERTEX_POINT('',#687);
#206=VERTEX_POINT('',#691);
#207=EDGE_CURVE('',#171,#171,#151,.T.);
#208=EDGE_CURVE('',#171,#172,#83,.T.);
#209=EDGE_CURVE('',#172,#172,#152,.T.);
#210=EDGE_CURVE('',#173,#173,#153,.T.);
#211=EDGE_CURVE('',#173,#174,#84,.T.);
#212=EDGE_CURVE('',#174,#174,#154,.T.);
#213=EDGE_CURVE('',#175,#176,#85,.T.);
#214=EDGE_CURVE('',#176,#177,#155,.T.);
#215=EDGE_CURVE('',#177,#178,#86,.T.);
#216=EDGE_CURVE('',#178,#179,#156,.T.);
#217=EDGE_CURVE('',#179,#180,#87,.T.);
#218=EDGE_CURVE('',#180,#181,#157,.T.);
#219=EDGE_CURVE('',#181,#182,#88,.T.);
#220=EDGE_CURVE('',#182,#175,#158,.T.);
#221=EDGE_CURVE('',#183,#184,#89,.T.);
#222=EDGE_CURVE('',#183,#185,#90,.T.);
#223=EDGE_CURVE('',#186,#185,#91,.T.);
#224=EDGE_CURVE('',#184,#186,#92,.T.);
#225=EDGE_CURVE('',#184,#187,#159,.T.);
#226=EDGE_CURVE('',#188,#186,#160,.T.);
#227=EDGE_CURVE('',#187,#188,#93,.T.);
#228=EDGE_CURVE('',#187,#189,#94,.T.);
#229=EDGE_CURVE('',#190,#188,#95,.T.);
#230=EDGE_CURVE('',#189,#190,#96,.T.);
#231=EDGE_CURVE('',#189,#191,#161,.T.);
#232=EDGE_CURVE('',#192,#190,#162,.T.);
#233=EDGE_CURVE('',#191,#192,#97,.T.);
#234=EDGE_CURVE('',#191,#193,#98,.T.);
#235=EDGE_CURVE('',#194,#192,#99,.T.);
#236=EDGE_CURVE('',#193,#194,#100,.T.);
#237=EDGE_CURVE('',#193,#195,#163,.T.);
#238=EDGE_CURVE('',#196,#194,#164,.T.);
#239=EDGE_CURVE('',#195,#196,#101,.T.);
#240=EDGE_CURVE('',#195,#197,#102,.T.);
#241=EDGE_CURVE('',#198,#196,#103,.T.);
#242=EDGE_CURVE('',#197,#198,#104,.T.);
#243=EDGE_CURVE('',#197,#183,#165,.T.);
#244=EDGE_CURVE('',#185,#198,#166,.T.);
#245=EDGE_CURVE('',#199,#200,#105,.T.);
#246=EDGE_CURVE('',#200,#176,#106,.T.);
#247=EDGE_CURVE('',#199,#175,#107,.T.);
#248=EDGE_CURVE('',#201,#199,#167,.T.);
#249=EDGE_CURVE('',#201,#182,#108,.T.);
#250=EDGE_CURVE('',#202,#201,#109,.T.);
#251=EDGE_CURVE('',#202,#181,#110,.T.);
#252=EDGE_CURVE('',#203,#202,#168,.T.);
#253=EDGE_CURVE('',#203,#180,#111,.T.);
#254=EDGE_CURVE('',#204,#203,#112,.T.);
#255=EDGE_CURVE('',#204,#179,#113,.T.);
#256=EDGE_CURVE('',#205,#204,#169,.T.);
#257=EDGE_CURVE('',#205,#178,#114,.T.);
#258=EDGE_CURVE('',#206,#205,#115,.T.);
#259=EDGE_CURVE('',#206,#177,#116,.T.);
#260=EDGE_CURVE('',#200,#206,#170,.T.);
#261=ORIENTED_EDGE('',*,*,#207,.F.);
#262=ORIENTED_EDGE('',*,*,#208,.T.);
#263=ORIENTED_EDGE('',*,*,#209,.T.);
#264=ORIENTED_EDGE('',*,*,#208,.F.);
#265=ORIENTED_EDGE('',*,*,#209,.F.);
#266=ORIENTED_EDGE('',*,*,#210,.F.);
#267=ORIENTED_EDGE('',*,*,#210,.T.);
#268=ORIENTED_EDGE('',*,*,#211,.T.);
#269=ORIENTED_EDGE('',*,*,#212,.F.);
#270=ORIENTED_EDGE('',*,*,#211,.F.);
#271=ORIENTED_EDGE('',*,*,#213,.T.);
#272=ORIENTED_EDGE('',*,*,#214,.T.);
#273=ORIENTED_EDGE('',*,*,#215,.T.);
#274=ORIENTED_EDGE('',*,*,#216,.T.);
#275=ORIENTED_EDGE('',*,*,#217,.T.);
#276=ORIENTED_EDGE('',*,*,#218,.T.);
#277=ORIENTED_EDGE('',*,*,#219,.T.);
#278=ORIENTED_EDGE('',*,*,#220,.T.);
#279=ORIENTED_EDGE('',*,*,#207,.T.);
#280=ORIENTED_EDGE('',*,*,#221,.F.);
#281=ORIENTED_EDGE('',*,*,#222,.T.);
#282=ORIENTED_EDGE('',*,*,#223,.F.);
#283=ORIENTED_EDGE('',*,*,#224,.F.);
#284=ORIENTED_EDGE('',*,*,#225,.F.);
#285=ORIENTED_EDGE('',*,*,#224,.T.);
#286=ORIENTED_EDGE('',*,*,#226,.F.);
#287=ORIENTED_EDGE('',*,*,#227,.F.);
#288=ORIENTED_EDGE('',*,*,#228,.F.);
#289=ORIENTED_EDGE('',*,*,#227,.T.);
#290=ORIENTED_EDGE('',*,*,#229,.F.);
#291=ORIENTED_EDGE('',*,*,#230,.F.);
#292=ORIENTED_EDGE('',*,*,#231,.F.);
#293=ORIENTED_EDGE('',*,*,#230,.T.);
#294=ORIENTED_EDGE('',*,*,#232,.F.);
#295=ORIENTED_EDGE('',*,*,#233,.F.);
#296=ORIENTED_EDGE('',*,*,#234,.F.);
#297=ORIENTED_EDGE('',*,*,#233,.T.);
#298=ORIENTED_EDGE('',*,*,#235,.F.);
#299=ORIENTED_EDGE('',*,*,#236,.F.);
#300=ORIENTED_EDGE('',*,*,#237,.F.);
#301=ORIENTED_EDGE('',*,*,#236,.T.);
#302=ORIENTED_EDGE('',*,*,#238,.F.);
#303=ORIENTED_EDGE('',*,*,#239,.F.);
#304=ORIENTED_EDGE('',*,*,#240,.F.);
#305=ORIENTED_EDGE('',*,*,#239,.T.);
#306=ORIENTED_EDGE('',*,*,#241,.F.);
#307=ORIENTED_EDGE('',*,*,#242,.F.);
#308=ORIENTED_EDGE('',*,*,#243,.F.);
#309=ORIENTED_EDGE('',*,*,#242,.T.);
#310=ORIENTED_EDGE('',*,*,#244,.F.);
#311=ORIENTED_EDGE('',*,*,#222,.F.);
#312=ORIENTED_EDGE('',*,*,#235,.T.);
#313=ORIENTED_EDGE('',*,*,#232,.T.);
#314=ORIENTED_EDGE('',*,*,#229,.T.);
#315=ORIENTED_EDGE('',*,*,#226,.T.);
#316=ORIENTED_EDGE('',*,*,#223,.T.);
#317=ORIENTED_EDGE('',*,*,#244,.T.);
#318=ORIENTED_EDGE('',*,*,#241,.T.);
#319=ORIENTED_EDGE('',*,*,#238,.T.);
#320=ORIENTED_EDGE('',*,*,#212,.T.);
#321=ORIENTED_EDGE('',*,*,#245,.T.);
#322=ORIENTED_EDGE('',*,*,#246,.T.);
#323=ORIENTED_EDGE('',*,*,#213,.F.);
#324=ORIENTED_EDGE('',*,*,#247,.F.);
#325=ORIENTED_EDGE('',*,*,#248,.T.);
#326=ORIENTED_EDGE('',*,*,#247,.T.);
#327=ORIENTED_EDGE('',*,*,#220,.F.);
#328=ORIENTED_EDGE('',*,*,#249,.F.);
#329=ORIENTED_EDGE('',*,*,#250,.T.);
#330=ORIENTED_EDGE('',*,*,#249,.T.);
#331=ORIENTED_EDGE('',*,*,#219,.F.);
#332=ORIENTED_EDGE('',*,*,#251,.F.);
#333=ORIENTED_EDGE('',*,*,#252,.T.);
#334=ORIENTED_EDGE('',*,*,#251,.T.);
#335=ORIENTED_EDGE('',*,*,#218,.F.);
#336=ORIENTED_EDGE('',*,*,#253,.F.);
#337=ORIENTED_EDGE('',*,*,#254,.T.);
#338=ORIENTED_EDGE('',*,*,#253,.T.);
#339=ORIENTED_EDGE('',*,*,#217,.F.);
#340=ORIENTED_EDGE('',*,*,#255,.F.);
#341=ORIENTED_EDGE('',*,*,#256,.T.);
#342=ORIENTED_EDGE('',*,*,#255,.T.);
#343=ORIENTED_EDGE('',*,*,#216,.F.);
#344=ORIENTED_EDGE('',*,*,#257,.F.);
#345=ORIENTED_EDGE('',*,*,#258,.T.);
#346=ORIENTED_EDGE('',*,*,#257,.T.);
#347=ORIENTED_EDGE('',*,*,#215,.F.);
#348=ORIENTED_EDGE('',*,*,#259,.F.);
#349=ORIENTED_EDGE('',*,*,#260,.T.);
#350=ORIENTED_EDGE('',*,*,#259,.T.);
#351=ORIENTED_EDGE('',*,*,#214,.F.);
#352=ORIENTED_EDGE('',*,*,#246,.F.);
#353=ORIENTED_EDGE('',*,*,#260,.F.);
#354=ORIENTED_EDGE('',*,*,#245,.F.);
#355=ORIENTED_EDGE('',*,*,#248,.F.);
#356=ORIENTED_EDGE('',*,*,#250,.F.);
#357=ORIENTED_EDGE('',*,*,#252,.F.);
#358=ORIENTED_EDGE('',*,*,#254,.F.);
#359=ORIENTED_EDGE('',*,*,#256,.F.);
#360=ORIENTED_EDGE('',*,*,#258,.F.);
#361=ORIENTED_EDGE('',*,*,#221,.T.);
#362=ORIENTED_EDGE('',*,*,#225,.T.);
#363=ORIENTED_EDGE('',*,*,#228,.T.);
#364=ORIENTED_EDGE('',*,*,#231,.T.);
#365=ORIENTED_EDGE('',*,*,#234,.T.);
#366=ORIENTED_EDGE('',*,*,#237,.T.);
#367=ORIENTED_EDGE('',*,*,#240,.T.);
#368=ORIENTED_EDGE('',*,*,#243,.T.);
#369=CYLINDRICAL_SURFACE('',#416,44.25);
#370=CYLINDRICAL_SURFACE('',#421,41.);
#371=CYLINDRICAL_SURFACE('',#429,2.5);
#372=CYLINDRICAL_SURFACE('',#433,2.5);
#373=CYLINDRICAL_SURFACE('',#437,2.5);
#374=CYLINDRICAL_SURFACE('',#441,2.50000000000001);
#375=CYLINDRICAL_SURFACE('',#446,2.5);
#376=CYLINDRICAL_SURFACE('',#449,2.5);
#377=CYLINDRICAL_SURFACE('',#452,2.50000000000001);
#378=CYLINDRICAL_SURFACE('',#455,2.5);
#379=ADVANCED_FACE('',(#35),#369,.F.);
#380=ADVANCED_FACE('',(#36,#19),#23,.T.);
#381=ADVANCED_FACE('',(#37),#370,.F.);
#382=ADVANCED_FACE('',(#38,#20),#24,.T.);
#383=ADVANCED_FACE('',(#39),#25,.T.);
#384=ADVANCED_FACE('',(#40),#371,.T.);
#385=ADVANCED_FACE('',(#41),#26,.T.);
#386=ADVANCED_FACE('',(#42),#372,.T.);
#387=ADVANCED_FACE('',(#43),#27,.T.);
#388=ADVANCED_FACE('',(#44),#373,.T.);
#389=ADVANCED_FACE('',(#45),#28,.T.);
#390=ADVANCED_FACE('',(#46),#374,.T.);
#391=ADVANCED_FACE('',(#47,#21),#29,.F.);
#392=ADVANCED_FACE('',(#48),#30,.T.);
#393=ADVANCED_FACE('',(#49),#375,.T.);
#394=ADVANCED_FACE('',(#50),#31,.T.);
#395=ADVANCED_FACE('',(#51),#376,.T.);
#396=ADVANCED_FACE('',(#52),#32,.T.);
#397=ADVANCED_FACE('',(#53),#377,.T.);
#398=ADVANCED_FACE('',(#54),#33,.T.);
#399=ADVANCED_FACE('',(#55),#378,.T.);
#400=ADVANCED_FACE('',(#56,#22),#34,.F.);
#401=CLOSED_SHELL('',(#379,#380,#381,#382,#383,#384,#385,#386,#387,#388,
#389,#390,#391,#392,#393,#394,#395,#396,#397,#398,#399,#400));
#402=DERIVED_UNIT_ELEMENT(#404,1.);
#403=DERIVED_UNIT_ELEMENT(#705,3.);
#404=(
MASS_UNIT()
NAMED_UNIT(*)
SI_UNIT(.KILO.,.GRAM.)
);
#405=DERIVED_UNIT((#402,#403));
#406=MEASURE_REPRESENTATION_ITEM('density measure',
POSITIVE_RATIO_MEASURE(7850.),#405);
#407=PROPERTY_DEFINITION_REPRESENTATION(#412,#409);
#408=PROPERTY_DEFINITION_REPRESENTATION(#413,#410);
#409=REPRESENTATION('material name',(#411),#702);
#410=REPRESENTATION('density',(#406),#702);
#411=DESCRIPTIVE_REPRESENTATION_ITEM('Steel','Steel');
#412=PROPERTY_DEFINITION('material property','material name',#717);
#413=PROPERTY_DEFINITION('material property','density of part',#717);
#414=AXIS2_PLACEMENT_3D('placement',#583,#459,#460);
#415=AXIS2_PLACEMENT_3D('placement',#584,#461,#462);
#416=AXIS2_PLACEMENT_3D('',#585,#463,#464);
#417=AXIS2_PLACEMENT_3D('',#587,#465,#466);
#418=AXIS2_PLACEMENT_3D('',#590,#468,#469);
#419=AXIS2_PLACEMENT_3D('',#591,#470,#471);
#420=AXIS2_PLACEMENT_3D('',#593,#472,#473);
#421=AXIS2_PLACEMENT_3D('',#594,#474,#475);
#422=AXIS2_PLACEMENT_3D('',#597,#477,#478);
#423=AXIS2_PLACEMENT_3D('',#598,#479,#480);
#424=AXIS2_PLACEMENT_3D('',#603,#482,#483);
#425=AXIS2_PLACEMENT_3D('',#607,#485,#486);
#426=AXIS2_PLACEMENT_3D('',#611,#488,#489);
#427=AXIS2_PLACEMENT_3D('',#614,#491,#492);
#428=AXIS2_PLACEMENT_3D('',#615,#493,#494);
#429=AXIS2_PLACEMENT_3D('',#624,#499,#500);
#430=AXIS2_PLACEMENT_3D('',#626,#501,#502);
#431=AXIS2_PLACEMENT_3D('',#628,#503,#504);
#432=AXIS2_PLACEMENT_3D('',#630,#506,#507);
#433=AXIS2_PLACEMENT_3D('',#636,#511,#512);
#434=AXIS2_PLACEMENT_3D('',#638,#513,#514);
#435=AXIS2_PLACEMENT_3D('',#640,#515,#516);
#436=AXIS2_PLACEMENT_3D('',#642,#518,#519);
#437=AXIS2_PLACEMENT_3D('',#648,#523,#524);
#438=AXIS2_PLACEMENT_3D('',#650,#525,#526);
#439=AXIS2_PLACEMENT_3D('',#652,#527,#528);
#440=AXIS2_PLACEMENT_3D('',#654,#530,#531);
#441=AXIS2_PLACEMENT_3D('',#660,#535,#536);
#442=AXIS2_PLACEMENT_3D('',#661,#537,#538);
#443=AXIS2_PLACEMENT_3D('',#662,#539,#540);
#444=AXIS2_PLACEMENT_3D('',#663,#541,#542);
#445=AXIS2_PLACEMENT_3D('',#664,#543,#544);
#446=AXIS2_PLACEMENT_3D('',#670,#548,#549);
#447=AXIS2_PLACEMENT_3D('',#672,#550,#551);
#448=AXIS2_PLACEMENT_3D('',#674,#553,#554);
#449=AXIS2_PLACEMENT_3D('',#678,#557,#558);
#450=AXIS2_PLACEMENT_3D('',#680,#559,#560);
#451=AXIS2_PLACEMENT_3D('',#682,#562,#563);
#452=AXIS2_PLACEMENT_3D('',#686,#566,#567);
#453=AXIS2_PLACEMENT_3D('',#688,#568,#569);
#454=AXIS2_PLACEMENT_3D('',#690,#571,#572);
#455=AXIS2_PLACEMENT_3D('',#694,#575,#576);
#456=AXIS2_PLACEMENT_3D('',#695,#577,#578);
#457=AXIS2_PLACEMENT_3D('',#696,#579,#580);
#458=AXIS2_PLACEMENT_3D('',#697,#581,#582);
#459=DIRECTION('axis',(0.,0.,1.));
#460=DIRECTION('refdir',(1.,0.,0.));
#461=DIRECTION('axis',(0.,0.,1.));
#462=DIRECTION('refdir',(1.,0.,0.));
#463=DIRECTION('center_axis',(0.,-1.,0.));
#464=DIRECTION('ref_axis',(-1.,0.,0.));
#465=DIRECTION('center_axis',(0.,-1.,0.));
#466=DIRECTION('ref_axis',(-1.,0.,0.));
#467=DIRECTION('',(0.,-1.,0.));
#468=DIRECTION('center_axis',(0.,-1.,0.));
#469=DIRECTION('ref_axis',(-1.,0.,0.));
#470=DIRECTION('center_axis',(0.,1.,0.));
#471=DIRECTION('ref_axis',(-1.,0.,0.));
#472=DIRECTION('center_axis',(0.,1.,0.));
#473=DIRECTION('ref_axis',(-1.,0.,0.));
#474=DIRECTION('center_axis',(0.,-1.,0.));
#475=DIRECTION('ref_axis',(-1.,0.,0.));
#476=DIRECTION('',(0.,-1.,0.));
#477=DIRECTION('center_axis',(0.,1.,0.));
#478=DIRECTION('ref_axis',(-1.,0.,0.));
#479=DIRECTION('center_axis',(0.,1.,0.));
#480=DIRECTION('ref_axis',(-1.,0.,0.));
#481=DIRECTION('',(-1.,0.,0.));
#482=DIRECTION('center_axis',(0.,1.,0.));
#483=DIRECTION('ref_axis',(3.5527136788005E-15,0.,-1.));
#484=DIRECTION('',(4.44089209850063E-17,0.,1.));
#485=DIRECTION('center_axis',(0.,1.,0.));
#486=DIRECTION('ref_axis',(-1.,0.,0.));
#487=DIRECTION('',(1.,0.,0.));
#488=DIRECTION('center_axis',(0.,1.,0.));
#489=DIRECTION('ref_axis',(0.,0.,1.));
#490=DIRECTION('',(0.,0.,-1.));
#491=DIRECTION('center_axis',(0.,1.,0.));
#492=DIRECTION('ref_axis',(1.,0.,0.));
#493=DIRECTION('center_axis',(0.,0.,1.));
#494=DIRECTION('ref_axis',(-1.,0.,0.));
#495=DIRECTION('',(1.,0.,0.));
#496=DIRECTION('',(0.,-1.,0.));
#497=DIRECTION('',(-1.,0.,0.));
#498=DIRECTION('',(0.,-1.,0.));
#499=DIRECTION('center_axis',(0.,-1.,0.));
#500=DIRECTION('ref_axis',(0.,0.,1.));
#501=DIRECTION('center_axis',(0.,1.,0.));
#502=DIRECTION('ref_axis',(0.,0.,1.));
#503=DIRECTION('center_axis',(0.,-1.,0.));
#504=DIRECTION('ref_axis',(0.,0.,1.));
#505=DIRECTION('',(0.,-1.,0.));
#506=DIRECTION('center_axis',(1.,0.,0.));
#507=DIRECTION('ref_axis',(0.,0.,1.));
#508=DIRECTION('',(0.,0.,-1.));
#509=DIRECTION('',(0.,0.,1.));
#510=DIRECTION('',(0.,-1.,0.));
#511=DIRECTION('center_axis',(0.,-1.,0.));
#512=DIRECTION('ref_axis',(1.,0.,0.));
#513=DIRECTION('center_axis',(0.,1.,0.));
#514=DIRECTION('ref_axis',(1.,0.,0.));
#515=DIRECTION('center_axis',(0.,-1.,0.));
#516=DIRECTION('ref_axis',(1.,0.,0.));
#517=DIRECTION('',(0.,-1.,0.));
#518=DIRECTION('center_axis',(0.,0.,-1.));
#519=DIRECTION('ref_axis',(1.,0.,0.));
#520=DIRECTION('',(-1.,0.,0.));
#521=DIRECTION('',(1.,0.,0.));
#522=DIRECTION('',(0.,-1.,0.));
#523=DIRECTION('center_axis',(0.,-1.,0.));
#524=DIRECTION('ref_axis',(0.,0.,-1.));
#525=DIRECTION('center_axis',(0.,1.,0.));
#526=DIRECTION('ref_axis',(0.,0.,-1.));
#527=DIRECTION('center_axis',(0.,-1.,0.));
#528=DIRECTION('ref_axis',(0.,0.,-1.));
#529=DIRECTION('',(0.,-1.,0.));
#530=DIRECTION('center_axis',(-1.,0.,0.));
#531=DIRECTION('ref_axis',(0.,0.,-1.));
#532=DIRECTION('',(0.,0.,1.));
#533=DIRECTION('',(0.,0.,-1.));
#534=DIRECTION('',(0.,-1.,0.));
#535=DIRECTION('center_axis',(0.,-1.,0.));
#536=DIRECTION('ref_axis',(-1.,0.,0.));
#537=DIRECTION('center_axis',(0.,1.,0.));
#538=DIRECTION('ref_axis',(-1.,0.,0.));
#539=DIRECTION('center_axis',(0.,-1.,0.));
#540=DIRECTION('ref_axis',(-1.,0.,0.));
#541=DIRECTION('center_axis',(0.,1.,0.));
#542=DIRECTION('ref_axis',(-1.,0.,0.));
#543=DIRECTION('center_axis',(0.,0.,-1.));
#544=DIRECTION('ref_axis',(-1.,0.,0.));
#545=DIRECTION('',(-1.,0.,0.));
#546=DIRECTION('',(0.,1.,0.));
#547=DIRECTION('',(0.,1.,0.));
#548=DIRECTION('center_axis',(0.,1.,0.));
#549=DIRECTION('ref_axis',(1.,0.,0.));
#550=DIRECTION('center_axis',(0.,1.,0.));
#551=DIRECTION('ref_axis',(1.,0.,0.));
#552=DIRECTION('',(0.,1.,0.));
#553=DIRECTION('center_axis',(1.,0.,0.));
#554=DIRECTION('ref_axis',(0.,0.,-1.));
#555=DIRECTION('',(0.,0.,-1.));
#556=DIRECTION('',(0.,1.,0.));
#557=DIRECTION('center_axis',(0.,1.,0.));
#558=DIRECTION('ref_axis',(0.,0.,1.));
#559=DIRECTION('center_axis',(0.,1.,0.));
#560=DIRECTION('ref_axis',(0.,0.,1.));
#561=DIRECTION('',(0.,1.,0.));
#562=DIRECTION('center_axis',(0.,0.,1.));
#563=DIRECTION('ref_axis',(1.,0.,0.));
#564=DIRECTION('',(1.,0.,0.));
#565=DIRECTION('',(0.,1.,0.));
#566=DIRECTION('center_axis',(0.,1.,0.));
#567=DIRECTION('ref_axis',(-1.,0.,0.));
#568=DIRECTION('center_axis',(0.,1.,0.));
#569=DIRECTION('ref_axis',(-1.,0.,0.));
#570=DIRECTION('',(0.,1.,0.));
#571=DIRECTION('center_axis',(-1.,0.,4.44089209850063E-17));
#572=DIRECTION('ref_axis',(4.44089209850063E-17,0.,1.));
#573=DIRECTION('',(4.44089209850063E-17,0.,1.));
#574=DIRECTION('',(0.,1.,0.));
#575=DIRECTION('center_axis',(0.,1.,0.));
#576=DIRECTION('ref_axis',(3.5527136788005E-15,0.,-1.));
#577=DIRECTION('center_axis',(0.,1.,0.));
#578=DIRECTION('ref_axis',(3.5527136788005E-15,0.,-1.));
#579=DIRECTION('center_axis',(0.,1.,0.));
#580=DIRECTION('ref_axis',(-1.,0.,0.));
#581=DIRECTION('',(0.,0.,1.));
#582=DIRECTION('',(1.,0.,0.));
#583=CARTESIAN_POINT('',(0.,0.,0.));
#584=CARTESIAN_POINT('',(0.,0.,0.));
#585=CARTESIAN_POINT('Origin',(110.25,1.,224.));
#586=CARTESIAN_POINT('',(154.5,1.,224.));
#587=CARTESIAN_POINT('Origin',(110.25,1.,224.));
#588=CARTESIAN_POINT('',(154.5,-3.,224.));
#589=CARTESIAN_POINT('',(154.5,1.,224.));
#590=CARTESIAN_POINT('Origin',(110.25,-3.,224.));
#591=CARTESIAN_POINT('Origin',(110.25,-3.,224.));
#592=CARTESIAN_POINT('',(151.25,-3.,224.));
#593=CARTESIAN_POINT('Origin',(110.25,-3.,224.));
#594=CARTESIAN_POINT('Origin',(110.25,1.,224.));
#595=CARTESIAN_POINT('',(151.25,-5.,224.));
#596=CARTESIAN_POINT('',(151.25,1.,224.));
#597=CARTESIAN_POINT('Origin',(110.25,-5.,224.));
#598=CARTESIAN_POINT('Origin',(110.25,1.,224.));
#599=CARTESIAN_POINT('',(181.25,1.,171.5));
#600=CARTESIAN_POINT('',(39.25,1.,171.5));
#601=CARTESIAN_POINT('',(181.25,1.,171.5));
#602=CARTESIAN_POINT('',(36.75,1.,174.));
#603=CARTESIAN_POINT('Origin',(39.25,1.,174.));
#604=CARTESIAN_POINT('',(36.75,1.,274.));
#605=CARTESIAN_POINT('',(36.75,1.,174.));
#606=CARTESIAN_POINT('',(39.25,1.,276.5));
#607=CARTESIAN_POINT('Origin',(39.25,1.,274.));
#608=CARTESIAN_POINT('',(181.25,1.,276.5));
#609=CARTESIAN_POINT('',(39.25,1.,276.5));
#610=CARTESIAN_POINT('',(183.75,1.,274.));
#611=CARTESIAN_POINT('Origin',(181.25,1.,274.));
#612=CARTESIAN_POINT('',(183.75,1.,174.));
#613=CARTESIAN_POINT('',(183.75,1.,274.));
#614=CARTESIAN_POINT('Origin',(181.25,1.,174.));
#615=CARTESIAN_POINT('Origin',(175.25,-3.,270.5));
#616=CARTESIAN_POINT('',(45.25,-3.,270.5));
#617=CARTESIAN_POINT('',(175.25,-3.,270.5));
#618=CARTESIAN_POINT('',(142.75,-3.,270.5));
#619=CARTESIAN_POINT('',(45.25,-5.,270.5));
#620=CARTESIAN_POINT('',(45.25,-3.,270.5));
#621=CARTESIAN_POINT('',(175.25,-5.,270.5));
#622=CARTESIAN_POINT('',(175.25,-5.,270.5));
#623=CARTESIAN_POINT('',(175.25,-3.,270.5));
#624=CARTESIAN_POINT('Origin',(175.25,-3.,268.));
#625=CARTESIAN_POINT('',(177.75,-3.,268.));
#626=CARTESIAN_POINT('Origin',(175.25,-3.,268.));
#627=CARTESIAN_POINT('',(177.75,-5.,268.));
#628=CARTESIAN_POINT('Origin',(175.25,-5.,268.));
#629=CARTESIAN_POINT('',(177.75,-3.,268.));
#630=CARTESIAN_POINT('Origin',(177.75,-3.,180.));
#631=CARTESIAN_POINT('',(177.75,-3.,180.));
#632=CARTESIAN_POINT('',(177.75,-3.,202.));
#633=CARTESIAN_POINT('',(177.75,-5.,180.));
#634=CARTESIAN_POINT('',(177.75,-5.,180.));
#635=CARTESIAN_POINT('',(177.75,-3.,180.));
#636=CARTESIAN_POINT('Origin',(175.25,-3.,180.));
#637=CARTESIAN_POINT('',(175.25,-3.,177.5));
#638=CARTESIAN_POINT('Origin',(175.25,-3.,180.));
#639=CARTESIAN_POINT('',(175.25,-5.,177.5));
#640=CARTESIAN_POINT('Origin',(175.25,-5.,180.));
#641=CARTESIAN_POINT('',(175.25,-3.,177.5));
#642=CARTESIAN_POINT('Origin',(45.25,-3.,177.5));
#643=CARTESIAN_POINT('',(45.25,-3.,177.5));
#644=CARTESIAN_POINT('',(77.75,-3.,177.5));
#645=CARTESIAN_POINT('',(45.25,-5.,177.5));
#646=CARTESIAN_POINT('',(45.25,-5.,177.5));
#647=CARTESIAN_POINT('',(45.25,-3.,177.5));
#648=CARTESIAN_POINT('Origin',(45.25,-3.,180.));
#649=CARTESIAN_POINT('',(42.75,-3.,180.));
#650=CARTESIAN_POINT('Origin',(45.25,-3.,180.));
#651=CARTESIAN_POINT('',(42.75,-5.,180.));
#652=CARTESIAN_POINT('Origin',(45.25,-5.,180.));
#653=CARTESIAN_POINT('',(42.75,-3.,180.));
#654=CARTESIAN_POINT('Origin',(42.75,-3.,268.));
#655=CARTESIAN_POINT('',(42.75,-3.,268.));
#656=CARTESIAN_POINT('',(42.75,-3.,246.));
#657=CARTESIAN_POINT('',(42.75,-5.,268.));
#658=CARTESIAN_POINT('',(42.75,-5.,268.));
#659=CARTESIAN_POINT('',(42.75,-3.,268.));
#660=CARTESIAN_POINT('Origin',(45.25,-3.,268.));
#661=CARTESIAN_POINT('Origin',(45.25,-3.,268.));
#662=CARTESIAN_POINT('Origin',(45.25,-5.,268.));
#663=CARTESIAN_POINT('Origin',(110.25,-5.,224.));
#664=CARTESIAN_POINT('Origin',(181.25,-3.,171.5));
#665=CARTESIAN_POINT('',(181.25,-3.,171.5));
#666=CARTESIAN_POINT('',(39.25,-3.,171.5));
#667=CARTESIAN_POINT('',(181.25,-3.,171.5));
#668=CARTESIAN_POINT('',(39.25,-3.,171.5));
#669=CARTESIAN_POINT('',(181.25,-3.,171.5));
#670=CARTESIAN_POINT('Origin',(181.25,-3.,174.));
#671=CARTESIAN_POINT('',(183.75,-3.,174.));
#672=CARTESIAN_POINT('Origin',(181.25,-3.,174.));
#673=CARTESIAN_POINT('',(183.75,-3.,174.));
#674=CARTESIAN_POINT('Origin',(183.75,-3.,274.));
#675=CARTESIAN_POINT('',(183.75,-3.,274.));
#676=CARTESIAN_POINT('',(183.75,-3.,274.));
#677=CARTESIAN_POINT('',(183.75,-3.,274.));
#678=CARTESIAN_POINT('Origin',(181.25,-3.,274.));
#679=CARTESIAN_POINT('',(181.25,-3.,276.5));
#680=CARTESIAN_POINT('Origin',(181.25,-3.,274.));
#681=CARTESIAN_POINT('',(181.25,-3.,276.5));
#682=CARTESIAN_POINT('Origin',(39.25,-3.,276.5));
#683=CARTESIAN_POINT('',(39.25,-3.,276.5));
#684=CARTESIAN_POINT('',(39.25,-3.,276.5));
#685=CARTESIAN_POINT('',(39.25,-3.,276.5));
#686=CARTESIAN_POINT('Origin',(39.25,-3.,274.));
#687=CARTESIAN_POINT('',(36.75,-3.,274.));
#688=CARTESIAN_POINT('Origin',(39.25,-3.,274.));
#689=CARTESIAN_POINT('',(36.75,-3.,274.));
#690=CARTESIAN_POINT('Origin',(36.75,-3.,174.));
#691=CARTESIAN_POINT('',(36.75,-3.,174.));
#692=CARTESIAN_POINT('',(36.75,-3.,174.));
#693=CARTESIAN_POINT('',(36.75,-3.,174.));
#694=CARTESIAN_POINT('Origin',(39.25,-3.,174.));
#695=CARTESIAN_POINT('Origin',(39.25,-3.,174.));
#696=CARTESIAN_POINT('Origin',(110.25,-3.,224.));
#697=CARTESIAN_POINT('',(0.,0.,0.));
#698=UNCERTAINTY_MEASURE_WITH_UNIT(LENGTH_MEASURE(0.01),#704,
'DISTANCE_ACCURACY_VALUE',
'Maximum model space distance between geometric entities at asserted c
onnectivities');
#699=UNCERTAINTY_MEASURE_WITH_UNIT(LENGTH_MEASURE(0.01),#704,
'DISTANCE_ACCURACY_VALUE',
'Maximum model space distance between geometric entities at asserted c
onnectivities');
#700=UNCERTAINTY_MEASURE_WITH_UNIT(LENGTH_MEASURE(0.01),#704,
'DISTANCE_ACCURACY_VALUE',
'Maximum model space distance between geometric entities at asserted c
onnectivities');
#701=(
GEOMETRIC_REPRESENTATION_CONTEXT(3)
GLOBAL_UNCERTAINTY_ASSIGNED_CONTEXT((#698))
GLOBAL_UNIT_ASSIGNED_CONTEXT((#704,#706,#707))
REPRESENTATION_CONTEXT('','3D')
);
#702=(
GEOMETRIC_REPRESENTATION_CONTEXT(3)
GLOBAL_UNCERTAINTY_ASSIGNED_CONTEXT((#699))
GLOBAL_UNIT_ASSIGNED_CONTEXT((#704,#706,#707))
REPRESENTATION_CONTEXT('','3D')
);
#703=(
GEOMETRIC_REPRESENTATION_CONTEXT(3)
GLOBAL_UNCERTAINTY_ASSIGNED_CONTEXT((#700))
GLOBAL_UNIT_ASSIGNED_CONTEXT((#704,#706,#707))
REPRESENTATION_CONTEXT('','3D')
);
#704=(
LENGTH_UNIT()
NAMED_UNIT(*)
SI_UNIT(.MILLI.,.METRE.)
);
#705=(
LENGTH_UNIT()
NAMED_UNIT(*)
SI_UNIT($,.METRE.)
);
#706=(
NAMED_UNIT(*)
PLANE_ANGLE_UNIT()
SI_UNIT($,.RADIAN.)
);
#707=(
NAMED_UNIT(*)
SI_UNIT($,.STERADIAN.)
SOLID_ANGLE_UNIT()
);
#708=SHAPE_DEFINITION_REPRESENTATION(#710,#713);
#709=SHAPE_DEFINITION_REPRESENTATION(#711,#714);
#710=PRODUCT_DEFINITION_SHAPE('',$,#716);
#711=PRODUCT_DEFINITION_SHAPE('',$,#717);
#712=PRODUCT_DEFINITION_SHAPE($,$,#14);
#713=SHAPE_REPRESENTATION('',(#414,#458),#701);
#714=SHAPE_REPRESENTATION('',(#415),#702);
#715=PRODUCT_DEFINITION_CONTEXT('part definition',#723,'design');
#716=PRODUCT_DEFINITION('NikonStageInsert_V3','NikonStageInsert_V3 v10',
#718,#715);
#717=PRODUCT_DEFINITION('InsertPetriM','InsertPetriM',#719,#715);
#718=PRODUCT_DEFINITION_FORMATION('',$,#725);
#719=PRODUCT_DEFINITION_FORMATION('',$,#726);
#720=PRODUCT_RELATED_PRODUCT_CATEGORY('NikonStageInsert_V3 v10',
'NikonStageInsert_V3 v10',(#725));
#721=PRODUCT_RELATED_PRODUCT_CATEGORY('InsertPetriM','InsertPetriM',(#726));
#722=APPLICATION_PROTOCOL_DEFINITION('international standard',
'automotive_design',2009,#723);
#723=APPLICATION_CONTEXT(
'Core Data for Automotive Mechanical Design Process');
#724=PRODUCT_CONTEXT('part definition',#723,'mechanical');
#725=PRODUCT('NikonStageInsert_V3','NikonStageInsert_V3 v10',$,(#724));
#726=PRODUCT('InsertPetriM','InsertPetriM',$,(#724));
#727=PRESENTATION_STYLE_ASSIGNMENT((#728));
#728=SURFACE_STYLE_USAGE(.BOTH.,#729);
#729=SURFACE_SIDE_STYLE('',(#730));
#730=SURFACE_STYLE_FILL_AREA(#731);
#731=FILL_AREA_STYLE('Steel - Satin',(#732));
#732=FILL_AREA_STYLE_COLOUR('Steel - Satin',#733);
#733=COLOUR_RGB('Steel - Satin',0.627450980392157,0.627450980392157,0.627450980392157);
ENDSEC;
END-ISO-10303-21;
